Le forum de la culture Hip-Hop en région Nord : infos, sorties, artistes, bon plans, téléchargements gratuits de mix-tapes et net-tapes...
HipHop59 ForumAccueilFAQS'enregistrerConnexion

Partagez | 
 

 lekfoo refuge réedition ;) !!

Voir le sujet précédent Voir le sujet suivant Aller en bas 
AuteurMessage
le_mysterieu_mysteredu59
Général
Général
avatar

Nombre de messages : 772
Age : 32
Localisation : 59roubaix*lens62
Date d'inscription : 12/01/2009

MessageSujet: lekfoo refuge réedition ;) !!   Sam 6 Juin - 15:13


------------------------00- Intro
------------------------01- Sa commence
------------------------02- Clack sonord
------------------------03- Crapuleux
------------------------04- A l'arrache
------------------------05- Compte de fee
------------------------06- Refuge
------------------------07- Besoin d'aide feat Kazhar
------------------------08- Tout seul
------------------------09- Hors de ma vue
------------------------10- Ma ville
------------------------11- Lekfoo
------------------------12- Vision
------------------------13- Jeune guerrier
------------------------14- L.s dimension feat Hostyl'
------------------------15- Colossale feat Messak
------------------------16- Yadeloula
------------------------17- Dans la peau
------------------------18- Trou noir
------------------------19- Ont est rien feat Sihem
------------------------20- Dorti
------------------------21- Grossolo
------------------------22- Sous la cendre
------------------------23- Ben tin


telecharger l'album ici : LEK'FOO ! REFUGE LA REEDITION

- Aussi vous pouvez le télécharger sur le skyblog -

lekfoo skyblog
Revenir en haut Aller en bas
http://59-dealer2son-officiel.skyrock.com
 
lekfoo refuge réedition ;) !!
Voir le sujet précédent Voir le sujet suivant Revenir en haut 
Page 1 sur 1
 Sujets similaires
-
» vend epiphone g 400 sg Korina edition limitée
» Refuge d'animaux.
» Status Quo PICTURES 40 Years of Hits - de luxe edition -
» Préludes - Debussy => Edition
» [vds] coffret pin's edition limité n°4373 45€

Permission de ce forum:Vous ne pouvez pas répondre aux sujets dans ce forum
 :: 59's EVENTS :: Les Productions-
Sauter vers:  
Le echos du Hip Hop
Tuto MAO GuitareCréer un forum | © phpBB | Forum gratuit d'entraide | Contact | Signaler un abus | Forum gratuit